0
SECTION
2
HEADER
9
$INSUNITS
70
4
9
$ACADVER
1
AC1014
9
$HANDSEED
5
FFFF
0
ENDSEC
0
SECTION
2
TABLES
0
TABLE
2
VPORT
5
8
100
AcDbSymbolTable
0
ENDTAB
0
TABLE
2
LTYPE
5
5
100
AcDbSymbolTable
0
LTYPE
5
14
100
AcDbSymbolTableRecord
100
AcDbLinetypeTableRecord
2
BYBLOCK
70
0
0
LTYPE
5
15
100
AcDbSymbolTableRecord
100
AcDbLinetypeTableRecord
2
BYLAYER
70
0
0
ENDTAB
0
TABLE
2
LAYER
5
2
100
AcDbSymbolTable
70
2
0
LAYER
5
50
100
AcDbSymbolTableRecord
100
AcDbLayerTableRecord
2
0
70
0
6
CONTINUOUS
0
ENDTAB
0
TABLE
2
STYLE
5
3
100
AcDbSymbolTable
70
1
0
STYLE
5
11
100
AcDbSymbolTableRecord
100
AcDbTextStyleTableRecord
2
STANDARD
70
0
0
ENDTAB
0
TABLE
2
VIEW
5
6
100
AcDbSymbolTable
70
0
0
ENDTAB
0
TABLE
2
UCS
5
7
100
AcDbSymbolTable
70
0
0
ENDTAB
0
TABLE
2
APPID
5
9
100
AcDbSymbolTable
70
2
0
APPID
5
12
100
AcDbSymbolTableRecord
100
AcDbRegAppTableRecord
2
ACAD
70
0
0
ENDTAB
0
TABLE
2
DIMSTYLE
5
A
100
AcDbSymbolTable
70
1
0
ENDTAB
0
TABLE
2
BLOCK_RECORD
5
1
100
AcDbSymbolTable
70
1
0
BLOCK_RECORD
5
1F
100
AcDbSymbolTableRecord
100
AcDbBlockTableRecord
2
*MODEL_SPACE
0
BLOCK_RECORD
5
1B
100
AcDbSymbolTableRecord
100
AcDbBlockTableRecord
2
*PAPER_SPACE
0
ENDTAB
0
ENDSEC
0
SECTION
2
BLOCKS
0
BLOCK
5
20
100
AcDbEntity
100
AcDbBlockBegin
2
*MODEL_SPACE
0
ENDBLK
5
21
100
AcDbEntity
100
AcDbBlockEnd
0
BLOCK
5
1C
100
AcDbEntity
100
AcDbBlockBegin
2
*PAPER_SPACE
0
ENDBLK
5
1D
100
AcDbEntity
100
AcDbBlockEnd
0
ENDSEC
0
SECTION
2
ENTITIES
0
LINE
5
100
100
AcDbEntity
8
0
100
AcDbLine
10
151.15017043482163
20
-5.4421039245431491
30
0
11
145.79355096493009
21
-5.4421039245431491
31
0
0
LINE
5
101
100
AcDbEntity
8
0
100
AcDbLine
10
129.28148224426275
20
-5.4421039245431668
30
0
11
134.63810171415432
21
-5.4421039245431668
31
0
0
LINE
5
102
100
AcDbEntity
8
0
100
AcDbLine
10
145.79355096493009
20
-5.4421039245431491
30
0
11
140.21582633954216
21
-20.431534417427116
31
0
0
LINE
5
103
100
AcDbEntity
8
0
100
AcDbLine
10
143.71582633954228
20
-25.420964761299526
30
0
11
136.71582633954222
21
-25.420964761299562
31
0
0
LINE
5
104
100
AcDbEntity
8
0
100
AcDbLine
10
129.28148224426275
20
-5.4421039245431668
30
0
11
136.71582633954222
21
-25.420964761299562
31
0
0
LINE
5
105
100
AcDbEntity
8
0
100
AcDbLine
10
134.63810171415432
20
-5.4421039245431668
30
0
11
140.21582633954216
21
-20.431534417427116
31
0
0
LINE
5
106
100
AcDbEntity
8
0
100
AcDbLine
10
151.15017043482163
20
-5.4421039245431491
30
0
11
143.71582633954228
21
-25.420964761299526
31
0
0
LINE
5
107
100
AcDbEntity
8
0
100
AcDbLine
10
-204.13571416128281
20
-35.748991858431985
30
0
11
-201.39033342825667
21
-33.839327619140008
31
0
0
LWPOLYLINE
5
108
100
AcDbEntity
8
0
100
AcDbPolyline
90
6
70
1
43
0.0
10
162.81322220367841
20
209.25100814156804
10
162.81322220367841
20
-35.748991858431985
10
-131.18677779632162
20
-35.748991858431992
42
-0.72203128625224122
10
-100.73705841955038
20
45.842316393885326
42
0.5745070533015133
10
96.290165662853269
20
202.1426764252613
10
95.182954607535478
20
209.25100814156806
0
LINE
5
109
100
AcDbEntity
8
0
100
AcDbLine
10
162.81322220367841
20
209.25100814156804
30
0
11
128.3569152036784
21
209.25100814156804
31
0
0
CIRCLE
5
110
100
AcDbEntity
8
0
100
AcDbCircle
10
128.3569152036784
20
180.33951114156804
30
0
40
5.0000000000000071
0
CIRCLE
5
111
100
AcDbEntity
8
0
100
AcDbCircle
10
128.35691520367843
20
140.33951114156804
30
0
40
5
0
CIRCLE
5
112
100
AcDbEntity
8
0
100
AcDbCircle
10
128.35691520367848
20
100.33951114156804
30
0
40
5.0000000000000071
0
LINE
5
113
100
AcDbEntity
8
0
100
AcDbLine
10
128.35691520367843
20
125.33951114156804
30
0
11
155.85691520367843
21
125.33951114156804
31
0
0
LINE
5
114
100
AcDbEntity
8
0
100
AcDbLine
10
155.85691520367843
20
125.33951114156804
30
0
11
155.85691520367843
21
209.25266055123376
31
0
0
LINE
5
115
100
AcDbEntity
8
0
100
AcDbLine
10
128.35691520367843
20
125.33951114156804
30
0
11
100.85691520367844
21
125.33951114156804
31
0
0
LINE
5
116
100
AcDbEntity
8
0
100
AcDbLine
10
100.85691520367844
20
125.33951114156804
30
0
11
100.85691520367847
21
209.25100814156806
31
0
0
LWPOLYLINE
5
117
100
AcDbEntity
8
0
100
AcDbPolyline
90
5
70
1
43
0.0
10
150.85691520367848
20
113.33951114156804
10
128.35691520367848
20
113.33951114156804
10
105.85691520367848
20
113.33951114156804
10
105.85691520367848
20
83.339511141568039
10
150.85691520367848
20
83.339511141568039
0
ENDSEC
0
SECTION
2
OBJECTS
0
DICTIONARY
5
C
100
AcDbDictionary
3
ACAD_GROUP
350
D
3
ACAD_MLINESTYLE
350
17
0
DICTIONARY
5
D
100
AcDbDictionary
0
DICTIONARY
5
1A
330
C
100
AcDbDictionary
0
DICTIONARY
5
17
100
AcDbDictionary
0
ENDSEC
0
EOF
